My Ruin
A Prayer Under Pressure of Violent Anguish
Heartsick

heed the tuning

E||--------------------------|-----------------------------|
B||--------------------------|-----------------------------|
G||--------------------------|-----------------------------|
D||--------------------------|-----------------------------|
G||-10p7-7-5-5h7-7-----------|--10p7-7-5-7-----5-----------|
C||----------------9---------|-------------9-9---8-8-787-4-|

E||--------------------------|--------------------------|
B||--------------------------|--------------------------|
G||--------------------------|--------------------------|
D||--------------------------|--------------------------|
G||-4-4-4-4-4-4-4-4-4-4-4-4--|--787---------------------|
C||-4-4-4-4-4-4-4-4-4-4-4-4--|--787-2-------------------|
    .   .   .   .   .   .       ...
E||--------------------------|--------------------------|
B||--------------------------|--------------------------|
G||--------------------------|--------------------------|
D||--------------------------|--------------------------|
G||-4-4-4-4-4-4-4-4----------|---------787--------------|
C||-4-4-4-4-4-4-4-4---12p9-9-|-11p8-8--787-2------------|
    .   .   .   .                      ...

(1:50)
E||--10--5---8----4-3-1------|--------------------------|
B||--------------------------|--------------------------|
G||--------------------------|--------------------------|
D||--------------------------|--------------------------|
G||--------------------------|--------------------------|
C||--------------------------|--------------------------|
 ||                          |                          |
E||--------------------------|--------------------------|
B||--------------------------|--------------------------|
G||--------------------------|--------------------------|
D||--5-----------------------|--------------------------|
G||--5---9---12---8-7-5------|--------------------------|
C||------9---12---8-7-5------|--------------------------|

high bit changes, hard to hear but goes something like...
E||--10-12-13-12-10-12-------|--7-8-10-8-7-8------------|
B||--------------------------|--------------------------|
G||--------------------------|--------------------------|
D||--------------------------|--------------------------|
G||--------------------------|--------------------------|
C||--------------------------|--------------------------|

E||--8-10-12-10-7-10---4-3-1-|
B||--------------------------|
G||--------------------------|
D||--------------------------|
G||--------------------------|
C||--------------------------|


Corrections 
-------------\
  This        \  Topcat_tony@yahoo.com
      Way     / 
-------------/
     ||
     ||
     ||